ISO-10303-21;
HEADER;
FILE_DESCRIPTION (( 'STEP AP203' ),
    '1' );
FILE_NAME ('Q-OZHWP-R2-20-405-M.STEP',
    '2020-12-22T09:16:29',
    ( '' ),
    ( '' ),
    'SwSTEP 2.0',
    'SolidWorks 2020',
    '' );
FILE_SCHEMA (( 'CONFIG_CONTROL_DESIGN' ));
ENDSEC;

DATA;
#1 = CIRCLE ( 'NONE', #208, 10.00000000000000000 ) ;
#2 = DIRECTION ( 'NONE',  ( 1.000000000000000000, 0.000000000000000000, 0.000000000000000000 ) ) ;
#3 = VERTEX_POINT ( 'NONE', #233 ) ;
#4 = PERSON_AND_ORGANIZATION ( #96, #156 ) ;
#5 = CC_DESIGN_PERSON_AND_ORGANIZATION_ASSIGNMENT ( #74, #99, ( #126 ) ) ;
#6 = DIRECTION ( 'NONE',  ( -0.000000000000000000, 0.000000000000000000, 1.000000000000000000 ) ) ;
#7 = VERTEX_POINT ( 'NONE', #38 ) ;
#8 = DIRECTION ( 'NONE',  ( 0.000000000000000000, 0.000000000000000000, 1.000000000000000000 ) ) ;
#9 = APPROVAL_PERSON_ORGANIZATION ( #4, #335, #58 ) ;
#10 = ORIENTED_EDGE ( 'NONE', *, *, #159, .F. ) ;
#11 = CARTESIAN_POINT ( 'NONE',  ( -1.614212418857619014, 0.000000000000000000, 12.69999999999999929 ) ) ;
#12 = FACE_BOUND ( 'NONE', #62, .T. ) ;
#13 = ORIENTED_EDGE ( 'NONE', *, *, #202, .T. ) ;
#14 = CARTESIAN_POINT ( 'NONE',  ( -1.614212418857619014, 0.000000000000000000, 10.00000000000000000 ) ) ;
#15 = CARTESIAN_POINT ( 'NONE',  ( 2.999999999999999112, 1.224646799147353256E-15, -10.00000000000000000 ) ) ;
#16 = CARTESIAN_POINT ( 'NONE',  ( -2.500000000000000444, 0.000000000000000000, 10.00000000000000000 ) ) ;
#17 = CARTESIAN_POINT ( 'NONE',  ( -2.500000000000000444, 10.00000000000000000, 0.000000000000000000 ) ) ;
#18 = AXIS2_PLACEMENT_3D ( 'NONE', #265, #268, #6 ) ;
#19 = CARTESIAN_POINT ( 'NONE',  ( -1.614212418857619014, 1.555301434917138433E-15, -12.69999999999999929 ) ) ;
#20 = EDGE_CURVE ( 'NONE', #3, #64, #180, .T. ) ;
#21 = VECTOR ( 'NONE', #199, 1000.000000000000000 ) ;
#22 = DIRECTION ( 'NONE',  ( 0.000000000000000000, 0.000000000000000000, 1.000000000000000000 ) ) ;
#23 = PERSON_AND_ORGANIZATION_ROLE ( 'design_owner' ) ;
#24 = CARTESIAN_POINT ( 'NONE',  ( -1.614212418857619014, 1.224646799147353256E-15, -10.00000000000000000 ) ) ;
#25 = DIRECTION ( 'NONE',  ( 1.000000000000000000, 0.000000000000000000, 0.000000000000000000 ) ) ;
#26 = APPLICATION_CONTEXT ( 'configuration controlled 3d designs of mechanical parts and assemblies' ) ;
#27 = EDGE_LOOP ( 'NONE', ( #312, #140 ) ) ;
#28 = DATE_TIME_ROLE ( 'classification_date' ) ;
#29 = VECTOR ( 'NONE', #152, 1000.000000000000000 ) ;
#30 = DIRECTION ( 'NONE',  ( -1.000000000000000000, 0.000000000000000000, -0.000000000000000000 ) ) ;
#31 = ORIENTED_EDGE ( 'NONE', *, *, #293, .T. ) ;
#32 = PERSON_AND_ORGANIZATION ( #96, #156 ) ;
#33 = ORIENTED_EDGE ( 'NONE', *, *, #224, .F. ) ;
#34 = FACE_OUTER_BOUND ( 'NONE', #318, .T. ) ;
#35 = EDGE_LOOP ( 'NONE', ( #266, #217 ) ) ;
#36 = DIRECTION ( 'NONE',  ( 0.000000000000000000, 0.000000000000000000, 1.000000000000000000 ) ) ;
#37 = AXIS2_PLACEMENT_3D ( 'NONE', #56, #81, #172 ) ;
#38 = CARTESIAN_POINT ( 'NONE',  ( -3.000000000000000000, 1.555301434917138433E-15, -12.69999999999999929 ) ) ;
#39 = APPROVAL ( #313, 'UNSPECIFIED' ) ;
#40 = DIRECTION ( 'NONE',  ( -1.000000000000000000, -0.000000000000000000, -0.000000000000000000 ) ) ;
#41 = FACE_OUTER_BOUND ( 'NONE', #35, .T. ) ;
#42 = VECTOR ( 'NONE', #298, 1000.000000000000000 ) ;
#43 = APPROVAL_ROLE ( '' ) ;
#44 = COORDINATED_UNIVERSAL_TIME_OFFSET ( 8, 0, .AHEAD. ) ;
#45 = CARTESIAN_POINT ( 'NONE',  ( -1.614212418857619014, 0.000000000000000000, 0.000000000000000000 ) ) ;
#46 = CC_DESIGN_APPROVAL ( #335, ( #283 ) ) ;
#47 = EDGE_CURVE ( 'NONE', #64, #3, #188, .T. ) ;
#48 =( NAMED_UNIT ( * ) SI_UNIT ( $, .STERADIAN. ) SOLID_ANGLE_UNIT ( ) );
#49 = AXIS2_PLACEMENT_3D ( 'NONE', #273, #2, #87 ) ;
#50 = LINE ( 'NONE', #331, #179 ) ;
#51 = ORIENTED_EDGE ( 'NONE', *, *, #327, .F. ) ;
#52 = EDGE_CURVE ( 'NONE', #222, #7, #254, .T. ) ;
#53 = DATE_AND_TIME ( #165, #70 ) ;
#54 = AXIS2_PLACEMENT_3D ( 'NONE', #279, #305, #73 ) ;
#55 = AXIS2_PLACEMENT_3D ( 'NONE', #130, #25, #330 ) ;
#56 = CARTESIAN_POINT ( 'NONE',  ( -3.000000000000000000, 0.000000000000000000, 0.000000000000000000 ) ) ;
#57 = ORIENTED_EDGE ( 'NONE', *, *, #138, .F. ) ;
#58 = APPROVAL_ROLE ( '' ) ;
#59 = DIRECTION ( 'NONE',  ( -1.000000000000000000, -0.000000000000000000, -0.000000000000000000 ) ) ;
#60 = ORIENTED_EDGE ( 'NONE', *, *, #202, .F. ) ;
#61 = CYLINDRICAL_SURFACE ( 'NONE', #284, 10.00000000000000000 ) ;
#62 = EDGE_LOOP ( 'NONE', ( #190, #114 ) ) ;
#63 = CC_DESIGN_DATE_AND_TIME_ASSIGNMENT ( #263, #28, ( #283 ) ) ;
#64 = VERTEX_POINT ( 'NONE', #295 ) ;
#65 = AXIS2_PLACEMENT_3D ( 'NONE', #334, #309, #22 ) ;
#66 = CIRCLE ( 'NONE', #299, 10.00000000000000000 ) ;
#67 = DIRECTION ( 'NONE',  ( -1.000000000000000000, -0.000000000000000000, -0.000000000000000000 ) ) ;
#68 = FACE_OUTER_BOUND ( 'NONE', #136, .T. ) ;
#69 = EDGE_CURVE ( 'NONE', #193, #169, #77, .T. ) ;
#70 = LOCAL_TIME ( 17, 16, 29.00000000000000000, #178 ) ;
#71 = AXIS2_PLACEMENT_3D ( 'NONE', #131, #76, #183 ) ;
#72 = ADVANCED_FACE ( 'NONE', ( #144 ), #163, .T. ) ;
#73 = DIRECTION ( 'NONE',  ( 1.000000000000000000, 0.000000000000000000, 0.000000000000000000 ) ) ;
#74 = PERSON_AND_ORGANIZATION ( #96, #156 ) ;
#75 = CC_DESIGN_DATE_AND_TIME_ASSIGNMENT ( #53, #267, ( #126 ) ) ;
#76 = DIRECTION ( 'NONE',  ( -1.000000000000000000, -0.000000000000000000, -0.000000000000000000 ) ) ;
#77 = CIRCLE ( 'NONE', #49, 10.00000000000000000 ) ;
#78 = ORIENTED_EDGE ( 'NONE', *, *, #20, .T. ) ;
#79 = PERSON_AND_ORGANIZATION_ROLE ( 'design_supplier' ) ;
#80 = ADVANCED_FACE ( 'NONE', ( #110 ), #242, .F. ) ;
#81 = DIRECTION ( 'NONE',  ( -1.000000000000000000, -0.000000000000000000, -0.000000000000000000 ) ) ;
#82 = VERTEX_POINT ( 'NONE', #15 ) ;
#83 = PERSON_AND_ORGANIZATION ( #96, #156 ) ;
#84 = LOCAL_TIME ( 17, 16, 29.00000000000000000, #44 ) ;
#85 = DIRECTION ( 'NONE',  ( 0.000000000000000000, 0.000000000000000000, 1.000000000000000000 ) ) ;
#86 = ORIENTED_EDGE ( 'NONE', *, *, #100, .T. ) ;
#87 = DIRECTION ( 'NONE',  ( 0.000000000000000000, 0.000000000000000000, -1.000000000000000000 ) ) ;
#88 = EDGE_LOOP ( 'NONE', ( #195, #91, #78, #237 ) ) ;
#89 = CYLINDRICAL_SURFACE ( 'NONE', #326, 12.69999999999999929 ) ;
#90 = ORIENTED_EDGE ( 'NONE', *, *, #327, .T. ) ;
#91 = ORIENTED_EDGE ( 'NONE', *, *, #138, .T. ) ;
#92 = LINE ( 'NONE', #11, #21 ) ;
#93 = DIRECTION ( 'NONE',  ( 0.000000000000000000, 0.000000000000000000, 1.000000000000000000 ) ) ;
#94 = AXIS2_PLACEMENT_3D ( 'NONE', #192, #59, #85 ) ;
#95 = ADVANCED_FACE ( 'NONE', ( #104 ), #61, .F. ) ;
#96 = PERSON ( 'UNSPECIFIED', 'UNSPECIFIED', 'UNSPECIFIED', ('UNSPECIFIED'), ('UNSPECIFIED'), ('UNSPECIFIED') ) ;
#97 = CIRCLE ( 'NONE', #329, 12.69999999999999929 ) ;
#98 = FACE_BOUND ( 'NONE', #220, .T. ) ;
#99 = PERSON_AND_ORGANIZATION_ROLE ( 'creator' ) ;
#100 = EDGE_CURVE ( 'NONE', #169, #193, #252, .T. ) ;
#101 = CC_DESIGN_APPROVAL ( #39, ( #317 ) ) ;
#102 = ORIENTED_EDGE ( 'NONE', *, *, #159, .T. ) ;
#103 = DATE_AND_TIME ( #134, #259 ) ;
#104 = FACE_OUTER_BOUND ( 'NONE', #88, .T. ) ;
#105 = EDGE_LOOP ( 'NONE', ( #289, #13, #166, #243 ) ) ;
#106 = APPROVAL_STATUS ( 'not_yet_approved' ) ;
#107 = EDGE_LOOP ( 'NONE', ( #60, #90, #212, #33 ) ) ;
#108 = LOCAL_TIME ( 17, 16, 29.00000000000000000, #286 ) ;
#109 = PRODUCT_DEFINITION_SHAPE ( 'NONE', 'NONE',  #126 ) ;
#110 = FACE_OUTER_BOUND ( 'NONE', #324, .T. ) ;
#111 = ORIENTED_EDGE ( 'NONE', *, *, #277, .T. ) ;
#112 = DIRECTION ( 'NONE',  ( 0.000000000000000000, 0.000000000000000000, 1.000000000000000000 ) ) ;
#113 = PLANE ( 'NONE',  #18 ) ;
#114 = ORIENTED_EDGE ( 'NONE', *, *, #154, .T. ) ;
#115 = DIRECTION ( 'NONE',  ( -1.000000000000000000, -0.000000000000000000, -0.000000000000000000 ) ) ;
#116 = ADVANCED_BREP_SHAPE_REPRESENTATION ( 'Q-OZHWP-R2-20-405-M', ( #246, #54 ), #203 ) ;
#117 = CARTESIAN_POINT ( 'NONE',  ( -1.614212418857619014, 0.000000000000000000, 0.000000000000000000 ) ) ;
#118 = DIRECTION ( 'NONE',  ( 0.000000000000000000, 0.000000000000000000, 1.000000000000000000 ) ) ;
#119 = CC_DESIGN_PERSON_AND_ORGANIZATION_ASSIGNMENT ( #83, #79, ( #317 ) ) ;
#120 = AXIS2_PLACEMENT_3D ( 'NONE', #320, #141, #236 ) ;
#121 = DIRECTION ( 'NONE',  ( 0.000000000000000000, 0.000000000000000000, 1.000000000000000000 ) ) ;
#122 = CARTESIAN_POINT ( 'NONE',  ( -3.000000000000000000, 0.000000000000000000, 12.69999999999999929 ) ) ;
#123 = CIRCLE ( 'NONE', #303, 10.00000000000000000 ) ;
#124 =( NAMED_UNIT ( * ) PLANE_ANGLE_UNIT ( ) SI_UNIT ( $, .RADIAN. ) );
#125 = APPLICATION_PROTOCOL_DEFINITION ( 'international standard', 'config_control_design', 1994, #26 ) ;
#126 = PRODUCT_DEFINITION ( 'UNKNOWN', '', #317, #275 ) ;
#127 = PLANE ( 'NONE',  #55 ) ;
#128 = CALENDAR_DATE ( 2020, 22, 12 ) ;
#129 = CC_DESIGN_APPROVAL ( #147, ( #126 ) ) ;
#130 = CARTESIAN_POINT ( 'NONE',  ( -3.000000000000000000, 10.00000000000000000, 0.000000000000000000 ) ) ;
#131 = CARTESIAN_POINT ( 'NONE',  ( -1.614212418857619014, 0.000000000000000000, 0.000000000000000000 ) ) ;
#132 = ADVANCED_FACE ( 'NONE', ( #34, #12 ), #113, .F. ) ;
#133 = VECTOR ( 'NONE', #115, 1000.000000000000000 ) ;
#134 = CALENDAR_DATE ( 2020, 22, 12 ) ;
#135 = CARTESIAN_POINT ( 'NONE',  ( -1.614212418857619014, 0.000000000000000000, 0.000000000000000000 ) ) ;
#136 = EDGE_LOOP ( 'NONE', ( #57, #164, #111, #216 ) ) ;
#137 = APPROVAL_ROLE ( '' ) ;
#138 = EDGE_CURVE ( 'NONE', #82, #3, #139, .T. ) ;
#139 = LINE ( 'NONE', #219, #177 ) ;
#140 = ORIENTED_EDGE ( 'NONE', *, *, #224, .T. ) ;
#141 = DIRECTION ( 'NONE',  ( -1.000000000000000000, -0.000000000000000000, -0.000000000000000000 ) ) ;
#142 = ORIENTED_EDGE ( 'NONE', *, *, #264, .T. ) ;
#143 = CARTESIAN_POINT ( 'NONE',  ( 2.999999999999999112, 0.000000000000000000, 10.00000000000000000 ) ) ;
#144 = FACE_OUTER_BOUND ( 'NONE', #107, .T. ) ;
#145 = DIRECTION ( 'NONE',  ( 0.000000000000000000, 0.000000000000000000, 1.000000000000000000 ) ) ;
#146 = APPLICATION_CONTEXT ( 'configuration controlled 3d designs of mechanical parts and assemblies' ) ;
#147 = APPROVAL ( #153, 'UNSPECIFIED' ) ;
#148 = FACE_OUTER_BOUND ( 'NONE', #105, .T. ) ;
#149 = UNCERTAINTY_MEASURE_WITH_UNIT (LENGTH_MEASURE( 1.000000000000000082E-05 ), #278, 'distance_accuracy_value', 'NONE');
#150 = EDGE_CURVE ( 'NONE', #315, #285, #97, .T. ) ;
#151 = AXIS2_PLACEMENT_3D ( 'NONE', #274, #40, #121 ) ;
#152 = DIRECTION ( 'NONE',  ( -1.000000000000000000, -0.000000000000000000, -0.000000000000000000 ) ) ;
#153 = APPROVAL_STATUS ( 'not_yet_approved' ) ;
#154 = EDGE_CURVE ( 'NONE', #82, #262, #123, .T. ) ;
#155 = APPLICATION_PROTOCOL_DEFINITION ( 'international standard', 'config_control_design', 1994, #146 ) ;
#156 = ORGANIZATION ( 'UNSPECIFIED', 'UNSPECIFIED', '' ) ;
#157 = CLOSED_SHELL ( 'NONE', ( #255, #306, #95, #80, #250, #311, #304, #72, #132, #244 ) ) ;
#158 = CARTESIAN_POINT ( 'NONE',  ( 3.000000000000000000, 1.555301434917138433E-15, -12.69999999999999929 ) ) ;
#159 = EDGE_CURVE ( 'NONE', #234, #296, #197, .T. ) ;
#160 = ORIENTED_EDGE ( 'NONE', *, *, #150, .F. ) ;
#161 = CALENDAR_DATE ( 2020, 22, 12 ) ;
#162 = AXIS2_PLACEMENT_3D ( 'NONE', #45, #256, #201 ) ;
#163 = CYLINDRICAL_SURFACE ( 'NONE', #332, 12.69999999999999929 ) ;
#164 = ORIENTED_EDGE ( 'NONE', *, *, #221, .F. ) ;
#165 = CALENDAR_DATE ( 2020, 22, 12 ) ;
#166 = ORIENTED_EDGE ( 'NONE', *, *, #52, .F. ) ;
#167 = APPROVAL_DATE_TIME ( #287, #335 ) ;
#168 = DIRECTION ( 'NONE',  ( -1.000000000000000000, -0.000000000000000000, -0.000000000000000000 ) ) ;
#169 = VERTEX_POINT ( 'NONE', #241 ) ;
#170 = DIRECTION ( 'NONE',  ( -1.000000000000000000, -0.000000000000000000, -0.000000000000000000 ) ) ;
#171 = AXIS2_PLACEMENT_3D ( 'NONE', #247, #30, #239 ) ;
#172 = DIRECTION ( 'NONE',  ( 0.000000000000000000, 0.000000000000000000, 1.000000000000000000 ) ) ;
#173 = PLANE ( 'NONE',  #232 ) ;
#174 = CYLINDRICAL_SURFACE ( 'NONE', #151, 10.00000000000000000 ) ;
#175 = CARTESIAN_POINT ( 'NONE',  ( -3.000000000000000444, 0.000000000000000000, 0.000000000000000000 ) ) ;
#176 = APPROVAL_PERSON_ORGANIZATION ( #32, #39, #137 ) ;
#177 = VECTOR ( 'NONE', #214, 1000.000000000000000 ) ;
#178 = COORDINATED_UNIVERSAL_TIME_OFFSET ( 8, 0, .AHEAD. ) ;
#179 = VECTOR ( 'NONE', #282, 1000.000000000000000 ) ;
#180 = CIRCLE ( 'NONE', #120, 10.00000000000000000 ) ;
#181 = COORDINATED_UNIVERSAL_TIME_OFFSET ( 8, 0, .AHEAD. ) ;
#182 = CC_DESIGN_PERSON_AND_ORGANIZATION_ASSIGNMENT ( #184, #187, ( #283 ) ) ;
#183 = DIRECTION ( 'NONE',  ( 0.000000000000000000, 0.000000000000000000, 1.000000000000000000 ) ) ;
#184 = PERSON_AND_ORGANIZATION ( #96, #156 ) ;
#185 = DIRECTION ( 'NONE',  ( 1.000000000000000000, 0.000000000000000000, 0.000000000000000000 ) ) ;
#186 = ORIENTED_EDGE ( 'NONE', *, *, #69, .T. ) ;
#187 = PERSON_AND_ORGANIZATION_ROLE ( 'classification_officer' ) ;
#188 = CIRCLE ( 'NONE', #94, 10.00000000000000000 ) ;
#189 = DIRECTION ( 'NONE',  ( -1.000000000000000000, -0.000000000000000000, -0.000000000000000000 ) ) ;
#190 = ORIENTED_EDGE ( 'NONE', *, *, #221, .T. ) ;
#191 = SHAPE_DEFINITION_REPRESENTATION ( #109, #116 ) ;
#192 = CARTESIAN_POINT ( 'NONE',  ( 2.500000000000000888, 0.000000000000000000, 0.000000000000000000 ) ) ;
#193 = VERTEX_POINT ( 'NONE', #16 ) ;
#194 = CARTESIAN_POINT ( 'NONE',  ( -1.614212418857619014, 0.000000000000000000, 0.000000000000000000 ) ) ;
#195 = ORIENTED_EDGE ( 'NONE', *, *, #154, .F. ) ;
#196 = EDGE_CURVE ( 'NONE', #315, #222, #92, .T. ) ;
#197 = CIRCLE ( 'NONE', #310, 10.00000000000000000 ) ;
#198 = DIRECTION ( 'NONE',  ( -1.000000000000000000, -0.000000000000000000, -0.000000000000000000 ) ) ;
#199 = DIRECTION ( 'NONE',  ( -1.000000000000000000, -0.000000000000000000, -0.000000000000000000 ) ) ;
#200 = LOCAL_TIME ( 17, 16, 29.00000000000000000, #181 ) ;
#201 = DIRECTION ( 'NONE',  ( 0.000000000000000000, 0.000000000000000000, 1.000000000000000000 ) ) ;
#202 = EDGE_CURVE ( 'NONE', #285, #7, #272, .T. ) ;
#203 =( GEOMETRIC_REPRESENTATION_CONTEXT ( 3 ) GLOBAL_UNCERTAINTY_ASSIGNED_CONTEXT ( ( #149 ) ) GLOBAL_UNIT_ASSIGNED_CONTEXT ( ( #278, #124, #48 ) ) REPRESENTATION_CONTEXT ( 'NONE', 'WORKASPACE' ) );
#204 = PERSON_AND_ORGANIZATION ( #96, #156 ) ;
#205 = AXIS2_PLACEMENT_3D ( 'NONE', #297, #302, #276 ) ;
#206 = CARTESIAN_POINT ( 'NONE',  ( 3.000000000000000000, 0.000000000000000000, 12.69999999999999929 ) ) ;
#207 = CARTESIAN_POINT ( 'NONE',  ( -3.000000000000000444, 1.224646799147353256E-15, -10.00000000000000000 ) ) ;
#208 = AXIS2_PLACEMENT_3D ( 'NONE', #175, #253, #145 ) ;
#209 = ORIENTED_EDGE ( 'NONE', *, *, #211, .T. ) ;
#210 = PERSON_AND_ORGANIZATION ( #96, #156 ) ;
#211 = EDGE_CURVE ( 'NONE', #296, #234, #1, .T. ) ;
#212 = ORIENTED_EDGE ( 'NONE', *, *, #196, .T. ) ;
#213 = SECURITY_CLASSIFICATION_LEVEL ( 'unclassified' ) ;
#214 = DIRECTION ( 'NONE',  ( -1.000000000000000000, -0.000000000000000000, -0.000000000000000000 ) ) ;
#215 = ORIENTED_EDGE ( 'NONE', *, *, #293, .F. ) ;
#216 = ORIENTED_EDGE ( 'NONE', *, *, #47, .T. ) ;
#217 = ORIENTED_EDGE ( 'NONE', *, *, #100, .F. ) ;
#218 = CARTESIAN_POINT ( 'NONE',  ( 2.999999999999999112, 0.000000000000000000, 0.000000000000000000 ) ) ;
#219 = CARTESIAN_POINT ( 'NONE',  ( -1.614212418857619014, 1.224646799147353256E-15, -10.00000000000000000 ) ) ;
#220 = EDGE_LOOP ( 'NONE', ( #10, #323 ) ) ;
#221 = EDGE_CURVE ( 'NONE', #262, #82, #66, .T. ) ;
#222 = VERTEX_POINT ( 'NONE', #122 ) ;
#223 = CARTESIAN_POINT ( 'NONE',  ( 2.999999999999999112, 0.000000000000000000, 0.000000000000000000 ) ) ;
#224 = EDGE_CURVE ( 'NONE', #7, #222, #319, .T. ) ;
#225 = PERSON_AND_ORGANIZATION ( #96, #156 ) ;
#226 = CYLINDRICAL_SURFACE ( 'NONE', #162, 10.00000000000000000 ) ;
#227 = APPROVAL_PERSON_ORGANIZATION ( #225, #147, #43 ) ;
#228 = DATE_AND_TIME ( #128, #84 ) ;
#229 = AXIS2_PLACEMENT_3D ( 'NONE', #270, #185, #288 ) ;
#230 = FACE_OUTER_BOUND ( 'NONE', #240, .T. ) ;
#231 = CC_DESIGN_PERSON_AND_ORGANIZATION_ASSIGNMENT ( #210, #290, ( #317 ) ) ;
#232 = AXIS2_PLACEMENT_3D ( 'NONE', #17, #300, #325 ) ;
#233 = CARTESIAN_POINT ( 'NONE',  ( 2.500000000000000888, 1.224646799147353256E-15, -10.00000000000000000 ) ) ;
#234 = VERTEX_POINT ( 'NONE', #322 ) ;
#235 = APPROVAL_DATE_TIME ( #103, #39 ) ;
#236 = DIRECTION ( 'NONE',  ( 0.000000000000000000, 0.000000000000000000, 1.000000000000000000 ) ) ;
#237 = ORIENTED_EDGE ( 'NONE', *, *, #277, .F. ) ;
#238 = COORDINATED_UNIVERSAL_TIME_OFFSET ( 8, 0, .AHEAD. ) ;
#239 = DIRECTION ( 'NONE',  ( -0.000000000000000000, 0.000000000000000000, 1.000000000000000000 ) ) ;
#240 = EDGE_LOOP ( 'NONE', ( #186, #31, #209, #271 ) ) ;
#241 = CARTESIAN_POINT ( 'NONE',  ( -2.500000000000000444, 1.224646799147353256E-15, -10.00000000000000000 ) ) ;
#242 = PLANE ( 'NONE',  #171 ) ;
#243 = ORIENTED_EDGE ( 'NONE', *, *, #196, .F. ) ;
#244 = ADVANCED_FACE ( 'NONE', ( #41 ), #173, .F. ) ;
#245 = LINE ( 'NONE', #14, #133 ) ;
#246 = MANIFOLD_SOLID_BREP ( 'Ðý×', #157 ) ;
#247 = CARTESIAN_POINT ( 'NONE',  ( 2.500000000000000444, 10.00000000000000000, 0.000000000000000000 ) ) ;
#248 = CARTESIAN_POINT ( 'NONE',  ( -3.000000000000000444, 0.000000000000000000, 0.000000000000000000 ) ) ;
#249 = DIRECTION ( 'NONE',  ( 0.000000000000000000, 0.000000000000000000, 1.000000000000000000 ) ) ;
#250 = ADVANCED_FACE ( 'NONE', ( #68 ), #174, .F. ) ;
#251 = CC_DESIGN_SECURITY_CLASSIFICATION ( #283, ( #317 ) ) ;
#252 = CIRCLE ( 'NONE', #229, 10.00000000000000000 ) ;
#253 = DIRECTION ( 'NONE',  ( -1.000000000000000000, -0.000000000000000000, -0.000000000000000000 ) ) ;
#254 = CIRCLE ( 'NONE', #37, 12.69999999999999929 ) ;
#255 = ADVANCED_FACE ( 'NONE', ( #148 ), #89, .T. ) ;
#256 = DIRECTION ( 'NONE',  ( -1.000000000000000000, -0.000000000000000000, -0.000000000000000000 ) ) ;
#257 = LINE ( 'NONE', #24, #29 ) ;
#258 = CC_DESIGN_PERSON_AND_ORGANIZATION_ASSIGNMENT ( #204, #23, ( #301 ) ) ;
#259 = LOCAL_TIME ( 17, 16, 29.00000000000000000, #238 ) ;
#260 = CIRCLE ( 'NONE', #65, 12.69999999999999929 ) ;
#261 = CYLINDRICAL_SURFACE ( 'NONE', #71, 10.00000000000000000 ) ;
#262 = VERTEX_POINT ( 'NONE', #143 ) ;
#263 = DATE_AND_TIME ( #161, #108 ) ;
#264 = EDGE_CURVE ( 'NONE', #193, #234, #245, .T. ) ;
#265 = CARTESIAN_POINT ( 'NONE',  ( 2.999999999999999112, 12.69999999999999929, 0.000000000000000000 ) ) ;
#266 = ORIENTED_EDGE ( 'NONE', *, *, #69, .F. ) ;
#267 = DATE_TIME_ROLE ( 'creation_date' ) ;
#268 = DIRECTION ( 'NONE',  ( -1.000000000000000000, 0.000000000000000000, -0.000000000000000000 ) ) ;
#269 = EDGE_LOOP ( 'NONE', ( #215, #86, #142, #102 ) ) ;
#270 = CARTESIAN_POINT ( 'NONE',  ( -2.500000000000000444, 0.000000000000000000, 0.000000000000000000 ) ) ;
#271 = ORIENTED_EDGE ( 'NONE', *, *, #264, .F. ) ;
#272 = LINE ( 'NONE', #19, #42 ) ;
#273 = CARTESIAN_POINT ( 'NONE',  ( -2.500000000000000444, 0.000000000000000000, 0.000000000000000000 ) ) ;
#274 = CARTESIAN_POINT ( 'NONE',  ( -1.614212418857619014, 0.000000000000000000, 0.000000000000000000 ) ) ;
#275 = DESIGN_CONTEXT ( 'detailed design', #26, 'design' ) ;
#276 = DIRECTION ( 'NONE',  ( 0.000000000000000000, 0.000000000000000000, 1.000000000000000000 ) ) ;
#277 = EDGE_CURVE ( 'NONE', #262, #64, #50, .T. ) ;
#278 =( LENGTH_UNIT ( ) NAMED_UNIT ( * ) SI_UNIT ( .MILLI., .METRE. ) );
#279 = CARTESIAN_POINT ( 'NONE',  ( 0.000000000000000000, 0.000000000000000000, 0.000000000000000000 ) ) ;
#280 = FACE_OUTER_BOUND ( 'NONE', #269, .T. ) ;
#281 = PRODUCT_RELATED_PRODUCT_CATEGORY ( 'detail', '', ( #301 ) ) ;
#282 = DIRECTION ( 'NONE',  ( -1.000000000000000000, -0.000000000000000000, -0.000000000000000000 ) ) ;
#283 = SECURITY_CLASSIFICATION ( '', '', #213 ) ;
#284 = AXIS2_PLACEMENT_3D ( 'NONE', #117, #168, #314 ) ;
#285 = VERTEX_POINT ( 'NONE', #158 ) ;
#286 = COORDINATED_UNIVERSAL_TIME_OFFSET ( 8, 0, .AHEAD. ) ;
#287 = DATE_AND_TIME ( #294, #200 ) ;
#288 = DIRECTION ( 'NONE',  ( 0.000000000000000000, 0.000000000000000000, -1.000000000000000000 ) ) ;
#289 = ORIENTED_EDGE ( 'NONE', *, *, #150, .T. ) ;
#290 = PERSON_AND_ORGANIZATION_ROLE ( 'creator' ) ;
#291 = DIRECTION ( 'NONE',  ( -1.000000000000000000, -0.000000000000000000, -0.000000000000000000 ) ) ;
#292 = ORIENTED_EDGE ( 'NONE', *, *, #20, .F. ) ;
#293 = EDGE_CURVE ( 'NONE', #169, #296, #257, .T. ) ;
#294 = CALENDAR_DATE ( 2020, 22, 12 ) ;
#295 = CARTESIAN_POINT ( 'NONE',  ( 2.500000000000000888, 0.000000000000000000, 10.00000000000000000 ) ) ;
#296 = VERTEX_POINT ( 'NONE', #207 ) ;
#297 = CARTESIAN_POINT ( 'NONE',  ( -3.000000000000000000, 0.000000000000000000, 0.000000000000000000 ) ) ;
#298 = DIRECTION ( 'NONE',  ( -1.000000000000000000, -0.000000000000000000, -0.000000000000000000 ) ) ;
#299 = AXIS2_PLACEMENT_3D ( 'NONE', #218, #67, #118 ) ;
#300 = DIRECTION ( 'NONE',  ( 1.000000000000000000, 0.000000000000000000, 0.000000000000000000 ) ) ;
#301 = PRODUCT ( 'Q-OZHWP-R2-20-405-M', 'Q-OZHWP-R2-20-405-M', '', ( #308 ) ) ;
#302 = DIRECTION ( 'NONE',  ( -1.000000000000000000, -0.000000000000000000, -0.000000000000000000 ) ) ;
#303 = AXIS2_PLACEMENT_3D ( 'NONE', #223, #328, #249 ) ;
#304 = ADVANCED_FACE ( 'NONE', ( #98, #307 ), #127, .F. ) ;
#305 = DIRECTION ( 'NONE',  ( 0.000000000000000000, 0.000000000000000000, 1.000000000000000000 ) ) ;
#306 = ADVANCED_FACE ( 'NONE', ( #230 ), #261, .F. ) ;
#307 = FACE_OUTER_BOUND ( 'NONE', #27, .T. ) ;
#308 = MECHANICAL_CONTEXT ( 'NONE', #146, 'mechanical' ) ;
#309 = DIRECTION ( 'NONE',  ( -1.000000000000000000, -0.000000000000000000, -0.000000000000000000 ) ) ;
#310 = AXIS2_PLACEMENT_3D ( 'NONE', #248, #198, #93 ) ;
#311 = ADVANCED_FACE ( 'NONE', ( #280 ), #226, .F. ) ;
#312 = ORIENTED_EDGE ( 'NONE', *, *, #52, .T. ) ;
#313 = APPROVAL_STATUS ( 'not_yet_approved' ) ;
#314 = DIRECTION ( 'NONE',  ( 0.000000000000000000, 0.000000000000000000, 1.000000000000000000 ) ) ;
#315 = VERTEX_POINT ( 'NONE', #206 ) ;
#316 = CARTESIAN_POINT ( 'NONE',  ( 3.000000000000000000, 0.000000000000000000, 0.000000000000000000 ) ) ;
#317 = PRODUCT_DEFINITION_FORMATION_WITH_SPECIFIED_SOURCE ( 'ANY', '', #301, .NOT_KNOWN. ) ;
#318 = EDGE_LOOP ( 'NONE', ( #160, #51 ) ) ;
#319 = CIRCLE ( 'NONE', #205, 12.69999999999999929 ) ;
#320 = CARTESIAN_POINT ( 'NONE',  ( 2.500000000000000888, 0.000000000000000000, 0.000000000000000000 ) ) ;
#321 = ORIENTED_EDGE ( 'NONE', *, *, #47, .F. ) ;
#322 = CARTESIAN_POINT ( 'NONE',  ( -3.000000000000000444, 0.000000000000000000, 10.00000000000000000 ) ) ;
#323 = ORIENTED_EDGE ( 'NONE', *, *, #211, .F. ) ;
#324 = EDGE_LOOP ( 'NONE', ( #321, #292 ) ) ;
#325 = DIRECTION ( 'NONE',  ( 0.000000000000000000, 0.000000000000000000, -1.000000000000000000 ) ) ;
#326 = AXIS2_PLACEMENT_3D ( 'NONE', #194, #170, #36 ) ;
#327 = EDGE_CURVE ( 'NONE', #285, #315, #260, .T. ) ;
#328 = DIRECTION ( 'NONE',  ( -1.000000000000000000, -0.000000000000000000, -0.000000000000000000 ) ) ;
#329 = AXIS2_PLACEMENT_3D ( 'NONE', #316, #189, #112 ) ;
#330 = DIRECTION ( 'NONE',  ( 0.000000000000000000, 0.000000000000000000, -1.000000000000000000 ) ) ;
#331 = CARTESIAN_POINT ( 'NONE',  ( -1.614212418857619014, 0.000000000000000000, 10.00000000000000000 ) ) ;
#332 = AXIS2_PLACEMENT_3D ( 'NONE', #135, #291, #8 ) ;
#333 = APPROVAL_DATE_TIME ( #228, #147 ) ;
#334 = CARTESIAN_POINT ( 'NONE',  ( 3.000000000000000000, 0.000000000000000000, 0.000000000000000000 ) ) ;
#335 = APPROVAL ( #106, 'UNSPECIFIED' ) ;
ENDSEC;
END-ISO-10303-21;
